ISO-10303-21;
HEADER;
FILE_DESCRIPTION (( 'STEP AP203' ),
    '1' );
FILE_NAME ('QM-CAHWP-20-900-2100-M.STEP',
    '2021-01-05T02:35:53',
    ( '' ),
    ( '' ),
    'SwSTEP 2.0',
    'SolidWorks 2020',
    '' );
FILE_SCHEMA (( 'CONFIG_CONTROL_DESIGN' ));
ENDSEC;

DATA;
#1 = PRODUCT_DEFINITION_FORMATION_WITH_SPECIFIED_SOURCE ( 'ANY', '', #16, .NOT_KNOWN. ) ;
#2 = EDGE_CURVE ( 'NONE', #86, #209, #120, .T. ) ;
#3 = DIRECTION ( 'NONE',  ( 0.000000000000000000, 0.000000000000000000, 1.000000000000000000 ) ) ;
#4 = LINE ( 'NONE', #304, #161 ) ;
#5 = ADVANCED_FACE ( 'NONE', ( #276 ), #199, .F. ) ;
#6 = CARTESIAN_POINT ( 'NONE',  ( -1.614212418857619014, 0.000000000000000000, 10.00000000000000000 ) ) ;
#7 = PERSON_AND_ORGANIZATION ( #150, #204 ) ;
#8 = EDGE_LOOP ( 'NONE', ( #137, #90 ) ) ;
#9 = DIRECTION ( 'NONE',  ( -1.000000000000000000, -0.000000000000000000, -0.000000000000000000 ) ) ;
#10 = CALENDAR_DATE ( 2021, 5, 1 ) ;
#11 = ORIENTED_EDGE ( 'NONE', *, *, #2, .F. ) ;
#12 = PERSON_AND_ORGANIZATION_ROLE ( 'creator' ) ;
#13 = VERTEX_POINT ( 'NONE', #168 ) ;
#14 = AXIS2_PLACEMENT_3D ( 'NONE', #180, #100, #285 ) ;
#15 = ORIENTED_EDGE ( 'NONE', *, *, #155, .F. ) ;
#16 = PRODUCT ( 'QM-CAHWP-20-900-2100-M', 'QM-CAHWP-20-900-2100-M', '', ( #294 ) ) ;
#17 = CARTESIAN_POINT ( 'NONE',  ( 2.999999999999999112, 1.224646799147353256E-15, -10.00000000000000000 ) ) ;
#18 = CARTESIAN_POINT ( 'NONE',  ( -1.614212418857619014, 0.000000000000000000, 12.69999999999999929 ) ) ;
#19 = CARTESIAN_POINT ( 'NONE',  ( -3.000000000000000000, 0.000000000000000000, 10.00000000000000000 ) ) ;
#20 = LINE ( 'NONE', #93, #203 ) ;
#21 = ORIENTED_EDGE ( 'NONE', *, *, #104, .F. ) ;
#22 = AXIS2_PLACEMENT_3D ( 'NONE', #309, #55, #152 ) ;
#23 = FACE_OUTER_BOUND ( 'NONE', #243, .T. ) ;
#24 = CC_DESIGN_APPROVAL ( #178, ( #191 ) ) ;
#25 = CARTESIAN_POINT ( 'NONE',  ( -3.000000000000000000, 0.000000000000000000, 0.000000000000000000 ) ) ;
#26 = CYLINDRICAL_SURFACE ( 'NONE', #22, 12.69999999999999929 ) ;
#27 = ADVANCED_FACE ( 'NONE', ( #198 ), #48, .F. ) ;
#28 = DIRECTION ( 'NONE',  ( -1.000000000000000000, -0.000000000000000000, -0.000000000000000000 ) ) ;
#29 = DIRECTION ( 'NONE',  ( -1.000000000000000000, -0.000000000000000000, -0.000000000000000000 ) ) ;
#30 = PERSON_AND_ORGANIZATION ( #150, #204 ) ;
#31 = DIRECTION ( 'NONE',  ( 1.000000000000000000, 0.000000000000000000, 0.000000000000000000 ) ) ;
#32 = APPROVAL_ROLE ( '' ) ;
#33 = ORIENTED_EDGE ( 'NONE', *, *, #327, .T. ) ;
#34 = CARTESIAN_POINT ( 'NONE',  ( -0.5000000000000006661, 0.000000000000000000, 10.00000000000000000 ) ) ;
#35 = CALENDAR_DATE ( 2021, 5, 1 ) ;
#36 = ORIENTED_EDGE ( 'NONE', *, *, #275, .F. ) ;
#37 = VERTEX_POINT ( 'NONE', #19 ) ;
#38 = COORDINATED_UNIVERSAL_TIME_OFFSET ( 8, 0, .AHEAD. ) ;
#39 = ORIENTED_EDGE ( 'NONE', *, *, #167, .T. ) ;
#40 = EDGE_LOOP ( 'NONE', ( #11, #59 ) ) ;
#41 = APPROVAL_PERSON_ORGANIZATION ( #7, #323, #290 ) ;
#42 = ORIENTED_EDGE ( 'NONE', *, *, #275, .T. ) ;
#43 = CARTESIAN_POINT ( 'NONE',  ( -3.000000000000000000, 1.555301434917138433E-15, -12.69999999999999929 ) ) ;
#44 = VECTOR ( 'NONE', #274, 1000.000000000000000 ) ;
#45 = CARTESIAN_POINT ( 'NONE',  ( 0.5000000000000013323, 0.000000000000000000, 0.000000000000000000 ) ) ;
#46 = AXIS2_PLACEMENT_3D ( 'NONE', #25, #29, #130 ) ;
#47 = DIRECTION ( 'NONE',  ( 0.000000000000000000, 0.000000000000000000, -1.000000000000000000 ) ) ;
#48 = PLANE ( 'NONE',  #247 ) ;
#49 = CC_DESIGN_PERSON_AND_ORGANIZATION_ASSIGNMENT ( #236, #12, ( #138 ) ) ;
#50 = DIRECTION ( 'NONE',  ( -1.000000000000000000, -0.000000000000000000, -0.000000000000000000 ) ) ;
#51 = AXIS2_PLACEMENT_3D ( 'NONE', #283, #28, #335 ) ;
#52 = DIRECTION ( 'NONE',  ( -1.000000000000000000, 0.000000000000000000, -0.000000000000000000 ) ) ;
#53 = DIRECTION ( 'NONE',  ( 1.000000000000000000, 0.000000000000000000, 0.000000000000000000 ) ) ;
#54 = CARTESIAN_POINT ( 'NONE',  ( -1.614212418857619014, 0.000000000000000000, 0.000000000000000000 ) ) ;
#55 = DIRECTION ( 'NONE',  ( -1.000000000000000000, -0.000000000000000000, -0.000000000000000000 ) ) ;
#56 = PERSON_AND_ORGANIZATION_ROLE ( 'creator' ) ;
#57 = AXIS2_PLACEMENT_3D ( 'NONE', #310, #79, #124 ) ;
#58 = CALENDAR_DATE ( 2021, 5, 1 ) ;
#59 = ORIENTED_EDGE ( 'NONE', *, *, #308, .F. ) ;
#60 = AXIS2_PLACEMENT_3D ( 'NONE', #279, #246, #141 ) ;
#61 = EDGE_LOOP ( 'NONE', ( #170, #324, #63, #272 ) ) ;
#62 = AXIS2_PLACEMENT_3D ( 'NONE', #184, #207, #31 ) ;
#63 = ORIENTED_EDGE ( 'NONE', *, *, #224, .T. ) ;
#64 = VERTEX_POINT ( 'NONE', #118 ) ;
#65 = APPLICATION_CONTEXT ( 'configuration controlled 3d designs of mechanical parts and assemblies' ) ;
#66 = CIRCLE ( 'NONE', #57, 12.69999999999999929 ) ;
#67 = LINE ( 'NONE', #18, #44 ) ;
#68 = ORIENTED_EDGE ( 'NONE', *, *, #308, .T. ) ;
#69 = ADVANCED_FACE ( 'NONE', ( #92 ), #222, .F. ) ;
#70 = VECTOR ( 'NONE', #245, 1000.000000000000000 ) ;
#71 = DIRECTION ( 'NONE',  ( -1.000000000000000000, -0.000000000000000000, -0.000000000000000000 ) ) ;
#72 = AXIS2_PLACEMENT_3D ( 'NONE', #108, #288, #84 ) ;
#73 = DIRECTION ( 'NONE',  ( -1.000000000000000000, -0.000000000000000000, -0.000000000000000000 ) ) ;
#74 = CARTESIAN_POINT ( 'NONE',  ( 2.999999999999999112, 0.000000000000000000, 0.000000000000000000 ) ) ;
#75 = AXIS2_PLACEMENT_3D ( 'NONE', #328, #144, #219 ) ;
#76 = CC_DESIGN_DATE_AND_TIME_ASSIGNMENT ( #185, #269, ( #138 ) ) ;
#77 = APPLICATION_CONTEXT ( 'configuration controlled 3d designs of mechanical parts and assemblies' ) ;
#78 = FACE_OUTER_BOUND ( 'NONE', #40, .T. ) ;
#79 = DIRECTION ( 'NONE',  ( -1.000000000000000000, -0.000000000000000000, -0.000000000000000000 ) ) ;
#80 = APPROVAL_STATUS ( 'not_yet_approved' ) ;
#81 = CIRCLE ( 'NONE', #122, 10.00000000000000000 ) ;
#82 = APPROVAL_DATE_TIME ( #213, #240 ) ;
#83 = ORIENTED_EDGE ( 'NONE', *, *, #165, .F. ) ;
#84 = DIRECTION ( 'NONE',  ( 0.000000000000000000, 0.000000000000000000, 1.000000000000000000 ) ) ;
#85 = PERSON_AND_ORGANIZATION ( #150, #204 ) ;
#86 = VERTEX_POINT ( 'NONE', #303 ) ;
#87 = EDGE_CURVE ( 'NONE', #261, #159, #175, .T. ) ;
#88 = AXIS2_PLACEMENT_3D ( 'NONE', #256, #53, #183 ) ;
#89 = EDGE_CURVE ( 'NONE', #320, #112, #117, .T. ) ;
#90 = ORIENTED_EDGE ( 'NONE', *, *, #155, .T. ) ;
#91 = CC_DESIGN_PERSON_AND_ORGANIZATION_ASSIGNMENT ( #110, #192, ( #16 ) ) ;
#92 = FACE_OUTER_BOUND ( 'NONE', #140, .T. ) ;
#93 = CARTESIAN_POINT ( 'NONE',  ( -1.614212418857619014, 1.224646799147353256E-15, -10.00000000000000000 ) ) ;
#94 = EDGE_CURVE ( 'NONE', #115, #209, #20, .T. ) ;
#95 = DIRECTION ( 'NONE',  ( 0.000000000000000000, 0.000000000000000000, 1.000000000000000000 ) ) ;
#96 = CARTESIAN_POINT ( 'NONE',  ( -1.614212418857619014, 0.000000000000000000, 10.00000000000000000 ) ) ;
#97 = AXIS2_PLACEMENT_3D ( 'NONE', #74, #177, #101 ) ;
#98 = ORIENTED_EDGE ( 'NONE', *, *, #190, .T. ) ;
#99 = DIRECTION ( 'NONE',  ( 1.000000000000000000, 0.000000000000000000, 0.000000000000000000 ) ) ;
#100 = DIRECTION ( 'NONE',  ( -1.000000000000000000, -0.000000000000000000, -0.000000000000000000 ) ) ;
#101 = DIRECTION ( 'NONE',  ( 0.000000000000000000, 0.000000000000000000, 1.000000000000000000 ) ) ;
#102 = DIRECTION ( 'NONE',  ( -1.000000000000000000, 0.000000000000000000, -0.000000000000000000 ) ) ;
#103 = CALENDAR_DATE ( 2021, 5, 1 ) ;
#104 = EDGE_CURVE ( 'NONE', #37, #112, #334, .T. ) ;
#105 = CARTESIAN_POINT ( 'NONE',  ( -1.614212418857619014, 0.000000000000000000, 0.000000000000000000 ) ) ;
#106 = APPLICATION_PROTOCOL_DEFINITION ( 'international standard', 'config_control_design', 1994, #77 ) ;
#107 = EDGE_LOOP ( 'NONE', ( #216, #162, #154, #36 ) ) ;
#108 = CARTESIAN_POINT ( 'NONE',  ( 0.5000000000000013323, 0.000000000000000000, 0.000000000000000000 ) ) ;
#109 = EDGE_LOOP ( 'NONE', ( #21, #302 ) ) ;
#110 = PERSON_AND_ORGANIZATION ( #150, #204 ) ;
#111 = CLOSED_SHELL ( 'NONE', ( #182, #200, #69, #262, #5, #227, #249, #252, #286, #27 ) ) ;
#112 = VERTEX_POINT ( 'NONE', #172 ) ;
#113 = VECTOR ( 'NONE', #9, 1000.000000000000000 ) ;
#114 = EDGE_CURVE ( 'NONE', #13, #261, #67, .T. ) ;
#115 = VERTEX_POINT ( 'NONE', #17 ) ;
#116 = VECTOR ( 'NONE', #143, 1000.000000000000000 ) ;
#117 = LINE ( 'NONE', #201, #116 ) ;
#118 = CARTESIAN_POINT ( 'NONE',  ( 3.000000000000000000, 1.555301434917138433E-15, -12.69999999999999929 ) ) ;
#119 = DIRECTION ( 'NONE',  ( -1.000000000000000000, -0.000000000000000000, -0.000000000000000000 ) ) ;
#120 = CIRCLE ( 'NONE', #271, 10.00000000000000000 ) ;
#121 = DIRECTION ( 'NONE',  ( -1.000000000000000000, -0.000000000000000000, -0.000000000000000000 ) ) ;
#122 = AXIS2_PLACEMENT_3D ( 'NONE', #232, #99, #149 ) ;
#123 = PLANE ( 'NONE',  #266 ) ;
#124 = DIRECTION ( 'NONE',  ( 0.000000000000000000, 0.000000000000000000, 1.000000000000000000 ) ) ;
#125 = CYLINDRICAL_SURFACE ( 'NONE', #221, 12.69999999999999929 ) ;
#126 = MANIFOLD_SOLID_BREP ( 'Ðý×', #111 ) ;
#127 = APPROVAL_PERSON_ORGANIZATION ( #160, #178, #241 ) ;
#128 = FACE_OUTER_BOUND ( 'NONE', #61, .T. ) ;
#129 = CC_DESIGN_PERSON_AND_ORGANIZATION_ASSIGNMENT ( #158, #56, ( #1 ) ) ;
#130 = DIRECTION ( 'NONE',  ( 0.000000000000000000, 0.000000000000000000, 1.000000000000000000 ) ) ;
#131 = DATE_AND_TIME ( #35, #226 ) ;
#132 = CALENDAR_DATE ( 2021, 5, 1 ) ;
#133 = DATE_TIME_ROLE ( 'classification_date' ) ;
#134 = ORIENTED_EDGE ( 'NONE', *, *, #244, .F. ) ;
#135 = ORIENTED_EDGE ( 'NONE', *, *, #190, .F. ) ;
#136 = PERSON_AND_ORGANIZATION_ROLE ( 'design_supplier' ) ;
#137 = ORIENTED_EDGE ( 'NONE', *, *, #244, .T. ) ;
#138 = PRODUCT_DEFINITION ( 'UNKNOWN', '', #1, #289 ) ;
#139 = DIRECTION ( 'NONE',  ( 0.000000000000000000, 0.000000000000000000, 1.000000000000000000 ) ) ;
#140 = EDGE_LOOP ( 'NONE', ( #15, #212, #68, #218 ) ) ;
#141 = DIRECTION ( 'NONE',  ( 0.000000000000000000, 0.000000000000000000, 1.000000000000000000 ) ) ;
#142 = LOCAL_TIME ( 10, 35, 53.00000000000000000, #38 ) ;
#143 = DIRECTION ( 'NONE',  ( -1.000000000000000000, -0.000000000000000000, -0.000000000000000000 ) ) ;
#144 = DIRECTION ( 'NONE',  ( -1.000000000000000000, -0.000000000000000000, -0.000000000000000000 ) ) ;
#145 = CARTESIAN_POINT ( 'NONE',  ( 0.5000000000000006661, 10.00000000000000000, 0.000000000000000000 ) ) ;
#146 = CC_DESIGN_APPROVAL ( #240, ( #138 ) ) ;
#147 = DIRECTION ( 'NONE',  ( -0.000000000000000000, 0.000000000000000000, 1.000000000000000000 ) ) ;
#148 = CARTESIAN_POINT ( 'NONE',  ( -3.000000000000000000, 10.00000000000000000, 0.000000000000000000 ) ) ;
#149 = DIRECTION ( 'NONE',  ( 0.000000000000000000, 0.000000000000000000, -1.000000000000000000 ) ) ;
#150 = PERSON ( 'UNSPECIFIED', 'UNSPECIFIED', 'UNSPECIFIED', ('UNSPECIFIED'), ('UNSPECIFIED'), ('UNSPECIFIED') ) ;
#151 =( GEOMETRIC_REPRESENTATION_CONTEXT ( 3 ) GLOBAL_UNCERTAINTY_ASSIGNED_CONTEXT ( ( #217 ) ) GLOBAL_UNIT_ASSIGNED_CONTEXT ( ( #311, #210, #263 ) ) REPRESENTATION_CONTEXT ( 'NONE', 'WORKASPACE' ) );
#152 = DIRECTION ( 'NONE',  ( 0.000000000000000000, 0.000000000000000000, 1.000000000000000000 ) ) ;
#153 = PERSON_AND_ORGANIZATION ( #150, #204 ) ;
#154 = ORIENTED_EDGE ( 'NONE', *, *, #114, .T. ) ;
#155 = EDGE_CURVE ( 'NONE', #115, #220, #231, .T. ) ;
#156 = LINE ( 'NONE', #6, #113 ) ;
#157 = PRODUCT_DEFINITION_SHAPE ( 'NONE', 'NONE',  #138 ) ;
#158 = PERSON_AND_ORGANIZATION ( #150, #204 ) ;
#159 = VERTEX_POINT ( 'NONE', #43 ) ;
#160 = PERSON_AND_ORGANIZATION ( #150, #204 ) ;
#161 = VECTOR ( 'NONE', #50, 1000.000000000000000 ) ;
#162 = ORIENTED_EDGE ( 'NONE', *, *, #165, .T. ) ;
#163 = APPROVAL_STATUS ( 'not_yet_approved' ) ;
#164 = EDGE_LOOP ( 'NONE', ( #291, #135 ) ) ;
#165 = EDGE_CURVE ( 'NONE', #64, #13, #319, .T. ) ;
#166 = ORIENTED_EDGE ( 'NONE', *, *, #94, .F. ) ;
#167 = EDGE_CURVE ( 'NONE', #316, #37, #330, .T. ) ;
#168 = CARTESIAN_POINT ( 'NONE',  ( 3.000000000000000000, 0.000000000000000000, 12.69999999999999929 ) ) ;
#169 = CC_DESIGN_DATE_AND_TIME_ASSIGNMENT ( #131, #133, ( #191 ) ) ;
#170 = ORIENTED_EDGE ( 'NONE', *, *, #292, .T. ) ;
#171 = AXIS2_PLACEMENT_3D ( 'NONE', #223, #121, #278 ) ;
#172 = CARTESIAN_POINT ( 'NONE',  ( -3.000000000000000000, 1.224646799147353256E-15, -10.00000000000000000 ) ) ;
#173 = DIRECTION ( 'NONE',  ( 0.000000000000000000, 0.000000000000000000, 1.000000000000000000 ) ) ;
#174 = CYLINDRICAL_SURFACE ( 'NONE', #215, 10.00000000000000000 ) ;
#175 = CIRCLE ( 'NONE', #75, 12.69999999999999929 ) ;
#176 = PLANE ( 'NONE',  #242 ) ;
#177 = DIRECTION ( 'NONE',  ( -1.000000000000000000, -0.000000000000000000, -0.000000000000000000 ) ) ;
#178 = APPROVAL ( #238, 'UNSPECIFIED' ) ;
#179 = CYLINDRICAL_SURFACE ( 'NONE', #51, 10.00000000000000000 ) ;
#180 = CARTESIAN_POINT ( 'NONE',  ( -3.000000000000000000, 0.000000000000000000, 0.000000000000000000 ) ) ;
#181 = APPROVAL_DATE_TIME ( #315, #323 ) ;
#182 = ADVANCED_FACE ( 'NONE', ( #235 ), #125, .T. ) ;
#183 = DIRECTION ( 'NONE',  ( 0.000000000000000000, 0.000000000000000000, -1.000000000000000000 ) ) ;
#184 = CARTESIAN_POINT ( 'NONE',  ( 0.000000000000000000, 0.000000000000000000, 0.000000000000000000 ) ) ;
#185 = DATE_AND_TIME ( #10, #237 ) ;
#186 = APPLICATION_PROTOCOL_DEFINITION ( 'international standard', 'config_control_design', 1994, #65 ) ;
#187 = APPROVAL_DATE_TIME ( #317, #178 ) ;
#188 = AXIS2_PLACEMENT_3D ( 'NONE', #195, #301, #139 ) ;
#189 = EDGE_LOOP ( 'NONE', ( #194, #98, #39, #270 ) ) ;
#190 = EDGE_CURVE ( 'NONE', #320, #316, #81, .T. ) ;
#191 = SECURITY_CLASSIFICATION ( '', '', #295 ) ;
#192 = PERSON_AND_ORGANIZATION_ROLE ( 'design_owner' ) ;
#193 = ORIENTED_EDGE ( 'NONE', *, *, #280, .T. ) ;
#194 = ORIENTED_EDGE ( 'NONE', *, *, #89, .F. ) ;
#195 = CARTESIAN_POINT ( 'NONE',  ( -3.000000000000000000, 0.000000000000000000, 0.000000000000000000 ) ) ;
#196 = AXIS2_PLACEMENT_3D ( 'NONE', #148, #257, #205 ) ;
#197 = CC_DESIGN_PERSON_AND_ORGANIZATION_ASSIGNMENT ( #153, #136, ( #1 ) ) ;
#198 = FACE_OUTER_BOUND ( 'NONE', #164, .T. ) ;
#199 = CYLINDRICAL_SURFACE ( 'NONE', #60, 10.00000000000000000 ) ;
#200 = ADVANCED_FACE ( 'NONE', ( #128 ), #179, .F. ) ;
#201 = CARTESIAN_POINT ( 'NONE',  ( -1.614212418857619014, 1.224646799147353256E-15, -10.00000000000000000 ) ) ;
#202 = CARTESIAN_POINT ( 'NONE',  ( -3.000000000000000000, 0.000000000000000000, 12.69999999999999929 ) ) ;
#203 = VECTOR ( 'NONE', #326, 1000.000000000000000 ) ;
#204 = ORGANIZATION ( 'UNSPECIFIED', 'UNSPECIFIED', '' ) ;
#205 = DIRECTION ( 'NONE',  ( 0.000000000000000000, 0.000000000000000000, -1.000000000000000000 ) ) ;
#206 = DIRECTION ( 'NONE',  ( 0.000000000000000000, 0.000000000000000000, 1.000000000000000000 ) ) ;
#207 = DIRECTION ( 'NONE',  ( 0.000000000000000000, 0.000000000000000000, 1.000000000000000000 ) ) ;
#208 = APPROVAL_PERSON_ORGANIZATION ( #85, #240, #32 ) ;
#209 = VERTEX_POINT ( 'NONE', #229 ) ;
#210 =( NAMED_UNIT ( * ) PLANE_ANGLE_UNIT ( ) SI_UNIT ( $, .RADIAN. ) );
#211 = COORDINATED_UNIVERSAL_TIME_OFFSET ( 8, 0, .AHEAD. ) ;
#212 = ORIENTED_EDGE ( 'NONE', *, *, #94, .T. ) ;
#213 = DATE_AND_TIME ( #132, #250 ) ;
#214 = EDGE_CURVE ( 'NONE', #13, #64, #66, .T. ) ;
#215 = AXIS2_PLACEMENT_3D ( 'NONE', #54, #305, #3 ) ;
#216 = ORIENTED_EDGE ( 'NONE', *, *, #280, .F. ) ;
#217 = UNCERTAINTY_MEASURE_WITH_UNIT (LENGTH_MEASURE( 1.000000000000000082E-05 ), #311, 'distance_accuracy_value', 'NONE');
#218 = ORIENTED_EDGE ( 'NONE', *, *, #327, .F. ) ;
#219 = DIRECTION ( 'NONE',  ( 0.000000000000000000, 0.000000000000000000, 1.000000000000000000 ) ) ;
#220 = VERTEX_POINT ( 'NONE', #333 ) ;
#221 = AXIS2_PLACEMENT_3D ( 'NONE', #105, #258, #206 ) ;
#222 = CYLINDRICAL_SURFACE ( 'NONE', #325, 10.00000000000000000 ) ;
#223 = CARTESIAN_POINT ( 'NONE',  ( 3.000000000000000000, 0.000000000000000000, 0.000000000000000000 ) ) ;
#224 = EDGE_CURVE ( 'NONE', #112, #37, #255, .T. ) ;
#225 = DIRECTION ( 'NONE',  ( 0.000000000000000000, 0.000000000000000000, 1.000000000000000000 ) ) ;
#226 = LOCAL_TIME ( 10, 35, 53.00000000000000000, #264 ) ;
#227 = ADVANCED_FACE ( 'NONE', ( #284 ), #174, .F. ) ;
#228 = FACE_BOUND ( 'NONE', #8, .T. ) ;
#229 = CARTESIAN_POINT ( 'NONE',  ( 0.5000000000000013323, 1.224646799147353256E-15, -10.00000000000000000 ) ) ;
#230 = CC_DESIGN_PERSON_AND_ORGANIZATION_ASSIGNMENT ( #30, #312, ( #191 ) ) ;
#231 = CIRCLE ( 'NONE', #293, 10.00000000000000000 ) ;
#232 = CARTESIAN_POINT ( 'NONE',  ( -0.5000000000000006661, 0.000000000000000000, 0.000000000000000000 ) ) ;
#233 = CIRCLE ( 'NONE', #97, 10.00000000000000000 ) ;
#234 = PRODUCT_RELATED_PRODUCT_CATEGORY ( 'detail', '', ( #16 ) ) ;
#235 = FACE_OUTER_BOUND ( 'NONE', #296, .T. ) ;
#236 = PERSON_AND_ORGANIZATION ( #150, #204 ) ;
#237 = LOCAL_TIME ( 10, 35, 53.00000000000000000, #287 ) ;
#238 = APPROVAL_STATUS ( 'not_yet_approved' ) ;
#239 = ORIENTED_EDGE ( 'NONE', *, *, #114, .F. ) ;
#240 = APPROVAL ( #163, 'UNSPECIFIED' ) ;
#241 = APPROVAL_ROLE ( '' ) ;
#242 = AXIS2_PLACEMENT_3D ( 'NONE', #282, #52, #147 ) ;
#243 = EDGE_LOOP ( 'NONE', ( #299, #42 ) ) ;
#244 = EDGE_CURVE ( 'NONE', #220, #115, #233, .T. ) ;
#245 = DIRECTION ( 'NONE',  ( -1.000000000000000000, -0.000000000000000000, -0.000000000000000000 ) ) ;
#246 = DIRECTION ( 'NONE',  ( -1.000000000000000000, -0.000000000000000000, -0.000000000000000000 ) ) ;
#247 = AXIS2_PLACEMENT_3D ( 'NONE', #248, #273, #47 ) ;
#248 = CARTESIAN_POINT ( 'NONE',  ( -0.5000000000000006661, 10.00000000000000000, 0.000000000000000000 ) ) ;
#249 = ADVANCED_FACE ( 'NONE', ( #306, #23 ), #281, .F. ) ;
#250 = LOCAL_TIME ( 10, 35, 53.00000000000000000, #260 ) ;
#251 = ORIENTED_EDGE ( 'NONE', *, *, #214, .T. ) ;
#252 = ADVANCED_FACE ( 'NONE', ( #332 ), #26, .T. ) ;
#253 = CARTESIAN_POINT ( 'NONE',  ( 2.999999999999999112, 0.000000000000000000, 0.000000000000000000 ) ) ;
#254 = FACE_OUTER_BOUND ( 'NONE', #268, .T. ) ;
#255 = CIRCLE ( 'NONE', #14, 10.00000000000000000 ) ;
#256 = CARTESIAN_POINT ( 'NONE',  ( -0.5000000000000006661, 0.000000000000000000, 0.000000000000000000 ) ) ;
#257 = DIRECTION ( 'NONE',  ( 1.000000000000000000, 0.000000000000000000, 0.000000000000000000 ) ) ;
#258 = DIRECTION ( 'NONE',  ( -1.000000000000000000, -0.000000000000000000, -0.000000000000000000 ) ) ;
#259 = DIRECTION ( 'NONE',  ( -0.000000000000000000, 0.000000000000000000, 1.000000000000000000 ) ) ;
#260 = COORDINATED_UNIVERSAL_TIME_OFFSET ( 8, 0, .AHEAD. ) ;
#261 = VERTEX_POINT ( 'NONE', #202 ) ;
#262 = ADVANCED_FACE ( 'NONE', ( #78 ), #123, .F. ) ;
#263 =( NAMED_UNIT ( * ) SI_UNIT ( $, .STERADIAN. ) SOLID_ANGLE_UNIT ( ) );
#264 = COORDINATED_UNIVERSAL_TIME_OFFSET ( 8, 0, .AHEAD. ) ;
#265 = EDGE_LOOP ( 'NONE', ( #166, #134, #33, #298 ) ) ;
#266 = AXIS2_PLACEMENT_3D ( 'NONE', #145, #102, #259 ) ;
#267 = SHAPE_DEFINITION_REPRESENTATION ( #157, #297 ) ;
#268 = EDGE_LOOP ( 'NONE', ( #318, #83 ) ) ;
#269 = DATE_TIME_ROLE ( 'creation_date' ) ;
#270 = ORIENTED_EDGE ( 'NONE', *, *, #104, .T. ) ;
#271 = AXIS2_PLACEMENT_3D ( 'NONE', #45, #119, #95 ) ;
#272 = ORIENTED_EDGE ( 'NONE', *, *, #167, .F. ) ;
#273 = DIRECTION ( 'NONE',  ( 1.000000000000000000, 0.000000000000000000, 0.000000000000000000 ) ) ;
#274 = DIRECTION ( 'NONE',  ( -1.000000000000000000, -0.000000000000000000, -0.000000000000000000 ) ) ;
#275 = EDGE_CURVE ( 'NONE', #159, #261, #331, .T. ) ;
#276 = FACE_OUTER_BOUND ( 'NONE', #265, .T. ) ;
#277 = CC_DESIGN_APPROVAL ( #323, ( #1 ) ) ;
#278 = DIRECTION ( 'NONE',  ( 0.000000000000000000, 0.000000000000000000, 1.000000000000000000 ) ) ;
#279 = CARTESIAN_POINT ( 'NONE',  ( -1.614212418857619014, 0.000000000000000000, 0.000000000000000000 ) ) ;
#280 = EDGE_CURVE ( 'NONE', #64, #159, #4, .T. ) ;
#281 = PLANE ( 'NONE',  #196 ) ;
#282 = CARTESIAN_POINT ( 'NONE',  ( 2.999999999999999556, 12.69999999999999929, 0.000000000000000000 ) ) ;
#283 = CARTESIAN_POINT ( 'NONE',  ( -1.614212418857619014, 0.000000000000000000, 0.000000000000000000 ) ) ;
#284 = FACE_OUTER_BOUND ( 'NONE', #189, .T. ) ;
#285 = DIRECTION ( 'NONE',  ( 0.000000000000000000, 0.000000000000000000, 1.000000000000000000 ) ) ;
#286 = ADVANCED_FACE ( 'NONE', ( #254, #228 ), #176, .F. ) ;
#287 = COORDINATED_UNIVERSAL_TIME_OFFSET ( 8, 0, .AHEAD. ) ;
#288 = DIRECTION ( 'NONE',  ( -1.000000000000000000, -0.000000000000000000, -0.000000000000000000 ) ) ;
#289 = DESIGN_CONTEXT ( 'detailed design', #77, 'design' ) ;
#290 = APPROVAL_ROLE ( '' ) ;
#291 = ORIENTED_EDGE ( 'NONE', *, *, #292, .F. ) ;
#292 = EDGE_CURVE ( 'NONE', #316, #320, #307, .T. ) ;
#293 = AXIS2_PLACEMENT_3D ( 'NONE', #253, #71, #225 ) ;
#294 = MECHANICAL_CONTEXT ( 'NONE', #65, 'mechanical' ) ;
#295 = SECURITY_CLASSIFICATION_LEVEL ( 'unclassified' ) ;
#296 = EDGE_LOOP ( 'NONE', ( #251, #193, #322, #239 ) ) ;
#297 = ADVANCED_BREP_SHAPE_REPRESENTATION ( 'QM-CAHWP-20-900-2100-M', ( #126, #62 ), #151 ) ;
#298 = ORIENTED_EDGE ( 'NONE', *, *, #2, .T. ) ;
#299 = ORIENTED_EDGE ( 'NONE', *, *, #87, .T. ) ;
#300 = CIRCLE ( 'NONE', #72, 10.00000000000000000 ) ;
#301 = DIRECTION ( 'NONE',  ( -1.000000000000000000, -0.000000000000000000, -0.000000000000000000 ) ) ;
#302 = ORIENTED_EDGE ( 'NONE', *, *, #224, .F. ) ;
#303 = CARTESIAN_POINT ( 'NONE',  ( 0.5000000000000013323, 0.000000000000000000, 10.00000000000000000 ) ) ;
#304 = CARTESIAN_POINT ( 'NONE',  ( -1.614212418857619014, 1.555301434917138433E-15, -12.69999999999999929 ) ) ;
#305 = DIRECTION ( 'NONE',  ( -1.000000000000000000, -0.000000000000000000, -0.000000000000000000 ) ) ;
#306 = FACE_BOUND ( 'NONE', #109, .T. ) ;
#307 = CIRCLE ( 'NONE', #88, 10.00000000000000000 ) ;
#308 = EDGE_CURVE ( 'NONE', #209, #86, #300, .T. ) ;
#309 = CARTESIAN_POINT ( 'NONE',  ( -1.614212418857619014, 0.000000000000000000, 0.000000000000000000 ) ) ;
#310 = CARTESIAN_POINT ( 'NONE',  ( 3.000000000000000000, 0.000000000000000000, 0.000000000000000000 ) ) ;
#311 =( LENGTH_UNIT ( ) NAMED_UNIT ( * ) SI_UNIT ( .MILLI., .METRE. ) );
#312 = PERSON_AND_ORGANIZATION_ROLE ( 'classification_officer' ) ;
#313 = CC_DESIGN_SECURITY_CLASSIFICATION ( #191, ( #1 ) ) ;
#314 = CARTESIAN_POINT ( 'NONE',  ( -0.5000000000000006661, 1.224646799147353256E-15, -10.00000000000000000 ) ) ;
#315 = DATE_AND_TIME ( #58, #142 ) ;
#316 = VERTEX_POINT ( 'NONE', #34 ) ;
#317 = DATE_AND_TIME ( #103, #321 ) ;
#318 = ORIENTED_EDGE ( 'NONE', *, *, #214, .F. ) ;
#319 = CIRCLE ( 'NONE', #171, 12.69999999999999929 ) ;
#320 = VERTEX_POINT ( 'NONE', #314 ) ;
#321 = LOCAL_TIME ( 10, 35, 53.00000000000000000, #211 ) ;
#322 = ORIENTED_EDGE ( 'NONE', *, *, #87, .F. ) ;
#323 = APPROVAL ( #80, 'UNSPECIFIED' ) ;
#324 = ORIENTED_EDGE ( 'NONE', *, *, #89, .T. ) ;
#325 = AXIS2_PLACEMENT_3D ( 'NONE', #329, #73, #173 ) ;
#326 = DIRECTION ( 'NONE',  ( -1.000000000000000000, -0.000000000000000000, -0.000000000000000000 ) ) ;
#327 = EDGE_CURVE ( 'NONE', #220, #86, #156, .T. ) ;
#328 = CARTESIAN_POINT ( 'NONE',  ( -3.000000000000000000, 0.000000000000000000, 0.000000000000000000 ) ) ;
#329 = CARTESIAN_POINT ( 'NONE',  ( -1.614212418857619014, 0.000000000000000000, 0.000000000000000000 ) ) ;
#330 = LINE ( 'NONE', #96, #70 ) ;
#331 = CIRCLE ( 'NONE', #46, 12.69999999999999929 ) ;
#332 = FACE_OUTER_BOUND ( 'NONE', #107, .T. ) ;
#333 = CARTESIAN_POINT ( 'NONE',  ( 2.999999999999999112, 0.000000000000000000, 10.00000000000000000 ) ) ;
#334 = CIRCLE ( 'NONE', #188, 10.00000000000000000 ) ;
#335 = DIRECTION ( 'NONE',  ( 0.000000000000000000, 0.000000000000000000, 1.000000000000000000 ) ) ;
ENDSEC;
END-ISO-10303-21;
